Promises

Damien SAEZ

Interview France Inter

Transcription: Keko

 

 

 

Intro et premier couplet en arpge, le reste en accord. Trs belle chanson.

 

Accords :

Am : 002210

C : 032010

E : 022100

Am1 : 002200

C1 : 032000

 

 

Intro :

Let ring

e |----------------------------------------------------------------------------|

B |--------0--------h-1--------1----------------1-----------3-----------3-1-0--|

G |------2-------------------2---2------------0---0-------0---0-------0--------|

D |----2-------------------2-------2--------2-------2---2-------2---2----------|

A |--0-------------------0-----------0-0--3-----------2-----------3------------|

E |----------------------------------------------------------------------------|

 

e |--------------------------------------------------------------|

B |--------0-h1-h0---0---------3-1-----------3-1-----------1-----|

G |------2---------2---0-2---2-----(2)-----0-----(0)-----0---0---|

D |----2-------------------2-------------2-------------2-------2-|

A |--0-------------------0-------------3-------------2-----------|

E |--------------------------------------------------------------|

 

e |------------------------------------------------------------|

B |--------1-----------1-----------3-----------1---------------|

G |------2---2-------0---0-------0---0-------2-----------------|

D |----2-------2---2-------2---2-------2---2-------------------|

A |--0-----------3-----------2-----------0---------------------|

E |------------------------------------------------------------|

And no, Im not going to Heaven

 

 

e |---------------------------------------------------|

B |--------1-----------1-----------3-----------1------|

G |------2---2-------0---0-------0---0-------2--------|

D |----2-------2---2-------2---2-------2---2----------|

A |--0-----------3-----------2-----------0------------|

E |---------------------------------------------------|

... Its all the same to me.

 

e |----------------------------------------------------------------------------|

B |--------1-----------1-----------3-----------3---------------------------1---|

G |------0---0-------0---0-------0---0-------0---0-------2-------0-------0-----|

D |----2-------2---2-------2---2-------2---2-------2---2---2---2---2---2-------|

A |--3-----------3-----------2-----------2-----------0-------2-------3---------|

E |----------------------------------------------------------------------------|

If you leave the light on, ... ... alone,

 

Am

No more those promises,

 

Am C

No more those promises,

C

No more those promises,

Am C

No more those promises.

 

Am C

Leave the light on

 

Am C

Leave the light on

 

Am C

Leave the light on,

 

Am C

Leave me alone,

 

 

 

Am Am1 Am C C1 C

e |---0----0-----0-0----0----0----0----0-0----0--|

B |---1----1-----0s1----1----1----1----0s1----1--|

G |---2----2-----2-2----2----0--0-0----0-0--0-0--|

D |---2--2-2--2--2-2--2-2----2--2-2--2-2-2--2-2--| Deux fois

A |---0--0-0--0--0-0--0-0----3--3-3--3-3-3--3-3--|

E |---0--0-0--0--0-0--0-0----0--0-0--0-0-0--0-0--|

 

 

Am

No, Im not going to Heaven

 

C

I Known You know this way

 

Am

As you make up to be,

 

C

Its all the same to me,

 

 

E

If you leave the light on

 

E

If you leave the light on

 

Am

If you leave the light on,

 

Am

Leave me alone,

 

 

Am C

No more those promises,

 

Am C

No more those promises,

 

Am C

No more those promises,

 

Am C

No more those promises.

 

 

E

Leave the light on

 

E

Leave the light on

 

Am

Leave the light on,

 

Am

Leave me alone,

 

 

Am

And no, Im not going to Heaven

 

Am

I Known You know this way

 

C

As you make up to be,

 

C

Its all the same to me, (jusqua la fin de la chanson).