On a pas la thune

Varsovie - L’Alhambra - Paris

Damien SAEZ

Transcription : Keïko

 

 

Vous pouvez la jouer à deux ou seul. La partie Ukulélé et la partie Flûte ont été tabblées. La tablature est faite sans capo, mais comme le Ukulélé peut être difficile du fait de la variation des notes (l’accordage du Ukulélé est totalement différent de celui de la guitare (GDEA)), donc, en fond de Tablature, je vous ai mis la Tab du Uku en Capo 5, c’est drôlement plus facile… La notation ||| sous certains accords (887) signifie qu’il faut les jouer en descendant le doigt rapidement plutôt que note à note.

 

La flute de pan :

|-10-------10--8-------8--13--11----10----------10--8------8--11--10-|

|----8---8---------10--------------------11---8---------10-----------|

|--------------------------------------------------------------------|

|--------------------------------------------------------------------|

|--------------------------------------------------------------------|

|--------------------------------------------------------------------|

 

|-10-------10--8-------8--15--13----10----------10--8------8--10-----8--10-|

|----8---8---------10-------------------11----8--------10---------10-------|

|--------------------------------------------------------------------------|

|--------------------------------------------------------------------------|

|--------------------------------------------------------------------------|

|--------------------------------------------------------------------------|

 

Le Ukulélé :

  A#                                 F                                                A#                               F                                          

|--------------------------------------------------------------------|

|--------------------------------------------------------------------|

|-7------7-----------5-------5----------7-------7---------5------5---|

|---8------------7------7--------7-----8---7----------7-----7------7-|

|------8-----------8------8-----------8------8----------8-----8------|

|--------------------------------------------------------------------|

                                      |||

 

|-------------------------------------------------------------|

|-------------------------------------------------------------|

|---7------7--------5-------5------7-----7--------5------5----|

|--8--5---------7------7------7------8-------7------7------7--|

|-8------8--------8------8-------------8--------8-----8-------|

|-------------------------------------------------------------| X2

  |||             

 

|-------------------------------------------------------|

|-------------------------------------------------------|

|---7------7--------5-------5------7-----7--------5-----|

|--8--5---------7------7------7------8-------7----------|

|-8------8--------8------8-------------8--------8-------|

|-------------------------------------------------------| X1

  |||                                                   laisser sonner…

 

En boucle :

|---------------------------------------------------|

|-----------------8--6------------------------------|

|-7-----7-------5-----------7-----7--------5---8-7--|

|---8-------7--------------7--7--------7------------|

|-----8-------8-----------8-----8--------8----------|

|---------------------------------------------------|

                          |||

 

Re-La flute :

|-10-10-10----10-8------8--13--11------10-10-10----10--8-----8--11--10-|

|------------------10-------------------------------------10-----------|

|----------------------------------------------------------------------|

|----------------------------------------------------------------------|

|----------------------------------------------------------------------|

|----------------------------------------------------------------------|

 

|-10-------------10--8--------------10------------10--8---|

|-----8--------8------------------------11------8---------|

|---------------------------------------------------------|

|---------------------------------------------------------|

|---------------------------------------------------------|

|---------------------------------------------------------|

 

-----------------------------------------------------------------------------------------

 

Si c’est plus facile pour vous, vous pouvez jouer la partie du Yukulélé en Capo 5

 

Le Ukulélé - CAPO 5:

Les accords en Capo 5

A# = F (133211)

F = C (032010)

  F             C                    F               C

|--------------------------------------------------------------------|

|--------------------------------------------------------------------|

|-2------2-----------0-------0----------2-------2---------0------0---|

|---3------------2------2--------2-----3---2----------2-----2------2-|

|------3-----------3------3-----------3------3----------3-----3------|

|--------------------------------------------------------------------|

                                      |||

 

|-------------------------------------------------------------|

|-------------------------------------------------------------|

|---2------2--------0-------0------2-----2--------0------0----|

|--3--0---------2------2------2------3-------2------2------2--|

|-3------3--------3------3-------------3--------3-----3-------|

|-------------------------------------------------------------| X2

  |||

 

|-------------------------------------------------------|

|-------------------------------------------------------|

|---2------2--------0-------0------2-----2--------0-----|

|--3--0---------2------2------2------3-------2----------|

|-3------3--------3------3-------------3--------3-------|

|-------------------------------------------------------| X1

  |||

 

En Boucle :

|---------------------------------------------------|

|-----------------3--1------------------------------|

|-2-----2-------0-----------2-----2--------0---3-2--|

|---3-------2--------------2--2--------2------------|

|-----3-------3-----------3-----3--------3----------|

|---------------------------------------------------|

                          |||

 

 

 

1999-2008 – Keïko - Tous droits réservés

Reproductions partielles ou intégrales interdites